  0
SECTION
  2
HEADER
  9
$ACADVER
  1
AC1015
  9
$ACADMAINTVER
 70
     6
  9
$DWGCODEPAGE
  3
ANSI_1254
  9
$INSBASE
 10
0.0
 20
0.0
 30
0.0
  9
$EXTMIN
 10
0.0
 20
0.0
 30
0.0
  9
$EXTMAX
 10
279.4
 20
215.9
 30
0.0
  9
$LIMMIN
 10
0.0
 20
0.0
  9
$LIMMAX
 10
279.4
 20
215.9
  9
$ORTHOMODE
 70
     0
  9
$REGENMODE
 70
     1
  9
$FILLMODE
 70
     1
  9
$QTEXTMODE
 70
     0
  9
$MIRRTEXT
 70
     1
  9
$LTSCALE
 40
1.0
  9
$ATTMODE
 70
     1
  9
$TEXTSIZE
 40
3.5
  9
$TRACEWID
 40
1.0
  9
$TEXTSTYLE
  7
Standard
  9
$CLAYER
  8
0
  9
$CELTYPE
  6
ByLayer
  9
$CECOLOR
 62
   256
  9
$CELTSCALE
 40
1.0
  9
$DISPSILH
 70
     0
  9
$DIMSCALE
 40
1.0
  9
$DIMASZ
 40
3.5
  9
$DIMEXO
 40
1.0
  9
$DIMDLI
 40
3.75
  9
$DIMRND
 40
0.0
  9
$DIMDLE
 40
0.0
  9
$DIMEXE
 40
1.0
  9
$DIMTP
 40
0.0
  9
$DIMTM
 40
0.0
  9
$DIMTXT
 40
3.5
  9
$DIMCEN
 40
2.5
  9
$DIMTSZ
 40
0.0
  9
$DIMTOL
 70
     0
  9
$DIMLIM
 70
     0
  9
$DIMTIH
 70
     1
  9
$DIMTOH
 70
     1
  9
$DIMSE1
 70
     0
  9
$DIMSE2
 70
     0
  9
$DIMTAD
 70
     1
  9
$DIMZIN
 70
     0
  9
$DIMBLK
  1

  9
$DIMASO
 70
     1
  9
$DIMSHO
 70
     1
  9
$DIMPOST
  1

  9
$DIMAPOST
  1

  9
$DIMALT
 70
     0
  9
$DIMALTD
 70
     3
  9
$DIMALTF
 40
0.0393700787
  9
$DIMLFAC
 40
1.0
  9
$DIMTOFL
 70
     1
  9
$DIMTVP
 40
0.0
  9
$DIMTIX
 70
     0
  9
$DIMSOXD
 70
     0
  9
$DIMSAH
 70
     0
  9
$DIMBLK1
  1

  9
$DIMBLK2
  1

  9
$DIMSTYLE
  2
ISO-25
  9
$DIMCLRD
 70
     0
  9
$DIMCLRE
 70
     0
  9
$DIMCLRT
 70
     0
  9
$DIMTFAC
 40
1.0
  9
$DIMGAP
 40
1.524
  9
$DIMJUST
 70
     0
  9
$DIMSD1
 70
     0
  9
$DIMSD2
 70
     0
  9
$DIMTOLJ
 70
     0
  9
$DIMTZIN
 70
     0
  9
$DIMALTZ
 70
     0
  9
$DIMALTTZ
 70
     0
  9
$DIMUPT
 70
     0
  9
$DIMDEC
 70
     2
  9
$DIMTDEC
 70
     2
  9
$DIMALTU
 70
     2
  9
$DIMALTTD
 70
     3
  9
$DIMTXSTY
  7
Standard
  9
$DIMAUNIT
 70
     0
  9
$DIMADEC
 70
     2
  9
$DIMALTRND
 40
0.0
  9
$DIMAZIN
 70
     0
  9
$DIMDSEP
 70
    44
  9
$DIMATFIT
 70
     3
  9
$DIMFRAC
 70
     0
  9
$DIMLDRBLK
  1

  9
$DIMLUNIT
 70
     2
  9
$DIMLWD
 70
    -2
  9
$DIMLWE
 70
    -2
  9
$DIMTMOVE
 70
     0
  9
$LUNITS
 70
     2
  9
$LUPREC
 70
     2
  9
$SKETCHINC
 40
1.0
  9
$FILLETRAD
 40
10.0
  9
$AUNITS
 70
     0
  9
$AUPREC
 70
     2
  9
$MENU
  1
.
  9
$ELEVATION
 40
0.0
  9
$PELEVATION
 40
0.0
  9
$THICKNESS
 40
0.0
  9
$LIMCHECK
 70
     0
  9
$CHAMFERA
 40
0.0
  9
$CHAMFERB
 40
0.0
  9
$CHAMFERC
 40
0.0
  9
$CHAMFERD
 40
0.0
  9
$SKPOLY
 70
     0
  9
$TDCREATE
 40
2459935.709296042
  9
$TDUCREATE
 40
2459935.584296042
  9
$TDUPDATE
 40
2459935.709296215
  9
$TDUUPDATE
 40
2459935.584296215
  9
$TDINDWG
 40
0.0000000116
  9
$TDUSRTIMER
 40
0.0000000116
  9
$USRTIMER
 70
     1
  9
$ANGBASE
 50
0.0
  9
$ANGDIR
 70
     0
  9
$PDMODE
 70
     0
  9
$PDSIZE
 40
-1.0
  9
$PLINEWID
 40
0.0
  9
$SPLFRAME
 70
     0
  9
$SPLINETYPE
 70
     6
  9
$SPLINESEGS
 70
     8
  9
$HANDSEED
  5
EF
  9
$SURFTAB1
 70
     6
  9
$SURFTAB2
 70
     6
  9
$SURFTYPE
 70
     6
  9
$SURFU
 70
     6
  9
$SURFV
 70
     6
  9
$UCSBASE
  2

  9
$UCSNAME
  2

  9
$UCSORG
 10
0.0
 20
0.0
 30
0.0
  9
$UCSXDIR
 10
1.0
 20
0.0
 30
0.0
  9
$UCSYDIR
 10
0.0
 20
1.0
 30
0.0
  9
$UCSORTHOREF
  2

  9
$UCSORTHOVIEW
 70
     0
  9
$UCSORGTOP
 10
0.0
 20
0.0
 30
0.0
  9
$UCSORGBOTTOM
 10
0.0
 20
0.0
 30
0.0
  9
$UCSORGLEFT
 10
0.0
 20
0.0
 30
0.0
  9
$UCSORGRIGHT
 10
0.0
 20
0.0
 30
0.0
  9
$UCSORGFRONT
 10
0.0
 20
0.0
 30
0.0
  9
$UCSORGBACK
 10
0.0
 20
0.0
 30
0.0
  9
$PUCSBASE
  2

  9
$PUCSNAME
  2

  9
$PUCSORG
 10
0.0
 20
0.0
 30
0.0
  9
$PUCSXDIR
 10
1.0
 20
0.0
 30
0.0
  9
$PUCSYDIR
 10
0.0
 20
1.0
 30
0.0
  9
$PUCSORTHOREF
  2

  9
$PUCSORTHOVIEW
 70
     0
  9
$PUCSORGTOP
 10
0.0
 20
0.0
 30
0.0
  9
$PUCSORGBOTTOM
 10
0.0
 20
0.0
 30
0.0
  9
$PUCSORGLEFT
 10
0.0
 20
0.0
 30
0.0
  9
$PUCSORGRIGHT
 10
0.0
 20
0.0
 30
0.0
  9
$PUCSORGFRONT
 10
0.0
 20
0.0
 30
0.0
  9
$PUCSORGBACK
 10
0.0
 20
0.0
 30
0.0
  9
$USERI1
 70
     0
  9
$USERI2
 70
     0
  9
$USERI3
 70
     0
  9
$USERI4
 70
     0
  9
$USERI5
 70
     0
  9
$USERR1
 40
0.0
  9
$USERR2
 40
0.0
  9
$USERR3
 40
0.0
  9
$USERR4
 40
0.0
  9
$USERR5
 40
0.0
  9
$WORLDVIEW
 70
     1
  9
$SHADEDGE
 70
     3
  9
$SHADEDIF
 70
    70
  9
$TILEMODE
 70
     1
  9
$MAXACTVP
 70
    64
  9
$PINSBASE
 10
0.0
 20
0.0
 30
0.0
  9
$PLIMCHECK
 70
     0
  9
$PEXTMIN
 10
1.0000000000E+20
 20
1.0000000000E+20
 30
1.0000000000E+20
  9
$PEXTMAX
 10
-1.0000000000E+20
 20
-1.0000000000E+20
 30
-1.0000000000E+20
  9
$PLIMMIN
 10
0.0
 20
0.0
  9
$PLIMMAX
 10
420.0
 20
297.0
  9
$UNITMODE
 70
     0
  9
$VISRETAIN
 70
     1
  9
$PLINEGEN
 70
     0
  9
$PSLTSCALE
 70
     1
  9
$TREEDEPTH
 70
  3020
  9
$CMLSTYLE
  2
Standard
  9
$CMLJUST
 70
     0
  9
$CMLSCALE
 40
20.0
  9
$PROXYGRAPHICS
 70
     1
  9
$MEASUREMENT
 70
     1
  9
$CELWEIGHT
370
    -1
  9
$ENDCAPS
280
     0
  9
$JOINSTYLE
280
     0
  9
$LWDISPLAY
290
     1
  9
$INSUNITS
 70
     4
  9
$HYPERLINKBASE
  1

  9
$STYLESHEET
  1

  9
$XEDIT
290
     1
  9
$CEPSNTYPE
380
     0
  9
$PSTYLEMODE
290
     1
  9
$FINGERPRINTGUID
  2
{c58f6da3-d92f-415b-91ba-74528baf826a}
  9
$VERSIONGUID
  2
{FAEB1C32-E019-11D5-929B-00C0DF256EC4}
  9
$EXTNAMES
290
     1
  9
$PSVPSCALE
 40
0.0
  9
$OLESTARTUP
290
     0
  0
ENDSEC
  0
SECTION
  2
CLASSES
  0
CLASS
  1
ACDBDICTIONARYWDFLT
  2
AcDbDictionaryWithDefault
  3
ObjectDBX Classes
 90
        0
280
     0
281
     0
  0
CLASS
  1
VISUALSTYLE
  2
AcDbVisualStyle
  3
ObjectDBX Classes
 90
     4095
280
     0
281
     0
  0
CLASS
  1
MATERIAL
  2
AcDbMaterial
  3
ObjectDBX Classes
 90
     1153
280
     0
281
     0
  0
CLASS
  1
SCALE
  2
AcDbScale
  3
ObjectDBX Classes
 90
     1153
280
     0
281
     0
  0
CLASS
  1
TABLESTYLE
  2
AcDbTableStyle
  3
ObjectDBX Classes
 90
     4095
280
     0
281
     0
  0
CLASS
  1
MLEADERSTYLE
  2
AcDbMLeaderStyle
  3
ACDB_MLEADERSTYLE_CLASS
 90
     4095
280
     0
281
     0
  0
CLASS
  1
SUN
  2
AcDbSun
  3
SCENEOE
 90
     1153
280
     0
281
     0
  0
CLASS
  1
ACDBPLACEHOLDER
  2
AcDbPlaceHolder
  3
ObjectDBX Classes
 90
        0
280
     0
281
     0
  0
CLASS
  1
LAYOUT
  2
AcDbLayout
  3
ObjectDBX Classes
 90
        0
280
     0
281
     0
  0
ENDSEC
  0
SECTION
  2
TABLES
  0
TABLE
  2
VPORT
  5
8
330
0
100
AcDbSymbolTable
 70
     1
  0
VPORT
  5
29
330
8
100
AcDbSymbolTableRecord
100
AcDbViewportTableRecord
  2
*Active
 70
     0
 10
0.0
 20
0.0
 11
1.0
 21
1.0
 12
139.7
 22
107.95
 13
0.0
 23
0.0
 14
10.0
 24
10.0
 15
10.0
 25
10.0
 16
0.0
 26
0.0
 36
1.0
 17
0.0
 27
0.0
 37
0.0
 40
215.9
 41
1.2941176471
 42
50.0
 43
0.0
 44
0.0
 50
0.0
 51
0.0
 71
     0
 72
  2000
 73
     1
 74
     3
 75
     0
 76
     0
 77
     0
 78
     0
281
     0
 65
     1
110
0.0
120
0.0
130
0.0
111
1.0
121
0.0
131
0.0
112
0.0
122
1.0
132
0.0
 79
     0
146
0.0
  0
ENDTAB
  0
TABLE
  2
LTYPE
  5
5
330
0
100
AcDbSymbolTable
 70
     6
  0
LTYPE
  5
14
330
5
100
AcDbSymbolTableRecord
100
AcDbLinetypeTableRecord
  2
ByBlock
 70
     0
  3

 72
    65
 73
     0
 40
0.0
  0
LTYPE
  5
15
330
5
100
AcDbSymbolTableRecord
100
AcDbLinetypeTableRecord
  2
ByLayer
 70
     0
  3

 72
    65
 73
     0
 40
0.0
  0
LTYPE
  5
16
330
5
100
AcDbSymbolTableRecord
100
AcDbLinetypeTableRecord
  2
Continuous
 70
     0
  3
Solid line
 72
    65
 73
     0
 40
0.0
  0
LTYPE
  5
6E
330
5
100
AcDbSymbolTableRecord
100
AcDbLinetypeTableRecord
  2
HIDDEN
 70
     0
  3
Hidden __ __ __ __ __ __ __ __ __ __ __ __ __ __
 72
    65
 73
     2
 40
1.905
 49
1.27
 74
     0
 49
-0.635
 74
     0
  0
LTYPE
  5
6F
330
5
100
AcDbSymbolTableRecord
100
AcDbLinetypeTableRecord
  2
PHANTOM
 70
     0
  3
Phantom ______  __  __  ______  __  __  ______
 72
    65
 73
     6
 40
12.7
 49
6.35
 74
     0
 49
-1.27
 74
     0
 49
1.27
 74
     0
 49
-1.27
 74
     0
 49
1.27
 74
     0
 49
-1.27
 74
     0
  0
LTYPE
  5
70
330
5
100
AcDbSymbolTableRecord
100
AcDbLinetypeTableRecord
  2
CENTER
 70
     0
  3
Center ____ _ ____ _ ____ _ ____ _ ____ _ ____
 72
    65
 73
     4
 40
10.16
 49
6.35
 74
     0
 49
-1.27
 74
     0
 49
1.27
 74
     0
 49
-1.27
 74
     0
  0
LTYPE
  5
71
330
5
100
AcDbSymbolTableRecord
100
AcDbLinetypeTableRecord
  2
CENTERX2
 70
     0
  3
Center (2x) ________  __  ________  __  _____
 72
    65
 73
     4
 40
20.32
 49
12.7
 74
     0
 49
-2.54
 74
     0
 49
2.54
 74
     0
 49
-2.54
 74
     0
  0
LTYPE
  5
72
330
5
100
AcDbSymbolTableRecord
100
AcDbLinetypeTableRecord
  2
DOT2
 70
     0
  3
Dot (.5x) ........................................
 72
    65
 73
     2
 40
0.635
 49
0.0
 74
     0
 49
-0.635
 74
     0
  0
ENDTAB
  0
TABLE
  2
LAYER
  5
2
330
0
100
AcDbSymbolTable
 70
    17
  0
LAYER
  5
10
330
2
100
AcDbSymbolTableRecord
100
AcDbLayerTableRecord
  2
0
 70
     0
 62
     7
  6
Continuous
370
    -3
390
F
  0
LAYER
  5
73
330
2
100
AcDbSymbolTableRecord
100
AcDbLayerTableRecord
  2
FORMAT
 70
     0
 62
     7
  6
Continuous
370
    -3
390
F
  0
LAYER
  5
74
330
2
100
AcDbSymbolTableRecord
100
AcDbLayerTableRecord
  2
YARDIMCI_GEOMETRI
 70
     0
 62
    -6
  6
Continuous
290
     0
370
    -3
390
F
  0
LAYER
  5
75
330
2
100
AcDbSymbolTableRecord
100
AcDbLayerTableRecord
  2
SAYFA_CERCEVESI
 70
     0
 62
     7
  6
Continuous
370
    25
390
F
  0
LAYER
  5
76
330
2
100
AcDbSymbolTableRecord
100
AcDbLayerTableRecord
  2
ANTET
 70
     0
 62
     7
  6
Continuous
370
    -3
390
F
  0
LAYER
  5
77
330
2
100
AcDbSymbolTableRecord
100
AcDbLayerTableRecord
  2
OLCU
 70
     0
 62
   150
  6
Continuous
370
    -3
390
F
  0
LAYER
  5
78
330
2
100
AcDbSymbolTableRecord
100
AcDbLayerTableRecord
  2
METIN
 70
     0
 62
    96
  6
Continuous
370
    -3
390
F
  0
LAYER
  5
79
330
2
100
AcDbSymbolTableRecord
100
AcDbLayerTableRecord
  2
BALON
 70
     0
 62
     5
  6
Continuous
370
    -3
390
F
  0
LAYER
  5
7A
330
2
100
AcDbSymbolTableRecord
100
AcDbLayerTableRecord
  2
VURGU
 70
     0
 62
     7
  6
Continuous
370
    -3
390
F
  0
LAYER
  5
7B
330
2
100
AcDbSymbolTableRecord
100
AcDbLayerTableRecord
  2
SILIK
 70
     0
 62
     7
  6
Continuous
370
    -3
390
F
  0
LAYER
  5
7C
330
2
100
AcDbSymbolTableRecord
100
AcDbLayerTableRecord
  2
MODEL
 70
     0
 62
     7
  6
Continuous
370
    -3
390
F
  0
LAYER
  5
7D
330
2
100
AcDbSymbolTableRecord
100
AcDbLayerTableRecord
  2
DETAYLANDıRMA
 70
     0
 62
   190
  6
Continuous
370
    -3
390
F
  0
LAYER
  5
7E
330
2
100
AcDbSymbolTableRecord
100
AcDbLayerTableRecord
  2
TOLERANS
 70
     0
 62
   230
  6
Continuous
370
    -3
390
F
  0
LAYER
  5
7F
330
2
100
AcDbSymbolTableRecord
100
AcDbLayerTableRecord
  2
MERKEZ_CIZGILERI
 70
     0
 62
    30
  6
Continuous
370
    -3
390
F
  0
LAYER
  5
80
330
2
100
AcDbSymbolTableRecord
100
AcDbLayerTableRecord
  2
KESIT-DETAY_CIZGILERI
 70
     0
 62
     7
  6
Continuous
370
    -3
390
F
  0
LAYER
  5
81
330
2
100
AcDbSymbolTableRecord
100
AcDbLayerTableRecord
  2
\U+041E\U+0421\U+0415\U+0412\U+042B\U+0415
 70
     0
 62
     7
  6
Continuous
370
    -3
390
F
  0
LAYER
  5
82
330
2
100
AcDbSymbolTableRecord
100
AcDbLayerTableRecord
  2
\U+0412\U+041E\U+0414\U+042F\U+041D\U+042B\U+0415_\U+0417\U+041D\U+0410\U+041A\U+0418
 70
     0
 62
    11
  6
Continuous
370
    -3
390
F
  0
ENDTAB
  0
TABLE
  2
STYLE
  5
3
330
0
100
AcDbSymbolTable
 70
     1
  0
STYLE
  5
11
330
3
100
AcDbSymbolTableRecord
100
AcDbTextStyleTableRecord
  2
Standard
 70
     0
 40
0.0
 41
1.0
 50
0.0
 71
     0
 42
3.5
  3
txt
  4

  0
ENDTAB
  0
TABLE
  2
VIEW
  5
6
330
0
100
AcDbSymbolTable
 70
     0
  0
ENDTAB
  0
TABLE
  2
UCS
  5
7
330
0
100
AcDbSymbolTable
 70
     0
  0
ENDTAB
  0
TABLE
  2
APPID
  5
9
330
0
100
AcDbSymbolTable
 70
     1
  0
APPID
  5
12
330
9
100
AcDbSymbolTableRecord
100
AcDbRegAppTableRecord
  2
ACAD
 70
     0
  0
ENDTAB
  0
TABLE
  2
DIMSTYLE
  5
A
330
0
100
AcDbSymbolTable
 70
     1
100
AcDbDimStyleTable
  0
DIMSTYLE
105
27
330
A
100
AcDbSymbolTableRecord
100
AcDbDimStyleTableRecord
  2
ISO-25
 70
     0
 41
2.5
 42
0.625
 43
3.75
 44
1.25
 73
     0
 74
     0
 77
     1
 78
     8
140
2.5
141
2.5
143
0.0393700787
147
0.625
171
     3
172
     1
178
     0
271
     2
272
     2
274
     3
278
    44
283
     0
284
     8
340
11
  0
ENDTAB
  0
TABLE
  2
BLOCK_RECORD
  5
1
330
0
100
AcDbSymbolTable
 70
     2
  0
BLOCK_RECORD
  5
1F
330
1
100
AcDbSymbolTableRecord
100
AcDbBlockTableRecord
  2
*Model_Space
340
22
  0
BLOCK_RECORD
  5
1B
330
1
100
AcDbSymbolTableRecord
100
AcDbBlockTableRecord
  2
*Paper_Space
340
1E
  0
BLOCK_RECORD
  5
23
330
1
100
AcDbSymbolTableRecord
100
AcDbBlockTableRecord
  2
*Paper_Space0
340
26
  0
BLOCK_RECORD
  5
8D
330
1
100
AcDbSymbolTableRecord
100
AcDbBlockTableRecord
  2
SW_CENTERMARKSYMBOL_0
340
0
102
{BLKREFS
331
98
102
}
  0
ENDTAB
  0
ENDSEC
  0
SECTION
  2
BLOCKS
  0
BLOCK
  5
20
330
1F
100
AcDbEntity
  8
0
100
AcDbBlockBegin
  2
*Model_Space
 70
     0
 10
0.0
 20
0.0
 30
0.0
  3
*Model_Space
  1

  0
ENDBLK
  5
21
330
1F
100
AcDbEntity
  8
0
100
AcDbBlockEnd
  0
BLOCK
  5
1C
330
1B
100
AcDbEntity
 67
     1
  8
0
100
AcDbBlockBegin
  2
*Paper_Space
 70
     0
 10
0.0
 20
0.0
 30
0.0
  3
*Paper_Space
  1

  0
ENDBLK
  5
1D
330
1B
100
AcDbEntity
 67
     1
  8
0
100
AcDbBlockEnd
  0
BLOCK
  5
24
330
23
100
AcDbEntity
  8
0
100
AcDbBlockBegin
  2
*Paper_Space0
 70
     0
 10
0.0
 20
0.0
 30
0.0
  3
*Paper_Space0
  1

  0
ENDBLK
  5
25
330
23
100
AcDbEntity
  8
0
100
AcDbBlockEnd
  0
BLOCK
  5
8E
330
8D
100
AcDbEntity
  8
0
100
AcDbBlockBegin
  2
SW_CENTERMARKSYMBOL_0
 70
     0
 10
0.0
 20
0.0
 30
0.0
  3
SW_CENTERMARKSYMBOL_0
  1

  0
LINE
  5
90
330
8D
100
AcDbEntity
  8
FORMAT
 62
     0
100
AcDbLine
 10
0.0
 20
0.0
 30
0.0
 11
0.0
 21
2.5
 31
0.0
  0
LINE
  5
91
330
8D
100
AcDbEntity
  8
FORMAT
 62
     0
100
AcDbLine
 10
0.0
 20
0.0
 30
0.0
 11
-2.5
 21
0.0
 31
0.0
  0
LINE
  5
92
330
8D
100
AcDbEntity
  8
FORMAT
 62
     0
100
AcDbLine
 10
0.0
 20
0.0
 30
0.0
 11
0.0
 21
-2.5
 31
0.0
  0
LINE
  5
93
330
8D
100
AcDbEntity
  8
FORMAT
 62
     0
100
AcDbLine
 10
0.0
 20
0.0
 30
0.0
 11
2.5
 21
0.0
 31
0.0
  0
LINE
  5
94
330
8D
100
AcDbEntity
  8
FORMAT
 62
     0
100
AcDbLine
 10
0.0
 20
5.0
 30
0.0
 11
0.0
 21
22.5
 31
0.0
  0
LINE
  5
95
330
8D
100
AcDbEntity
  8
FORMAT
 62
     0
100
AcDbLine
 10
-5.0
 20
0.0
 30
0.0
 11
-22.5
 21
0.0
 31
0.0
  0
LINE
  5
96
330
8D
100
AcDbEntity
  8
FORMAT
 62
     0
100
AcDbLine
 10
0.0
 20
-5.0
 30
0.0
 11
0.0
 21
-22.5
 31
0.0
  0
LINE
  5
97
330
8D
100
AcDbEntity
  8
FORMAT
 62
     0
100
AcDbLine
 10
5.0
 20
0.0
 30
0.0
 11
22.5
 21
0.0
 31
0.0
  0
ENDBLK
  5
8F
330
8D
100
AcDbEntity
  8
0
100
AcDbBlockEnd
  0
ENDSEC
  0
SECTION
  2
ENTITIES
  0
CIRCLE
  5
83
330
1F
100
AcDbEntity
  8
0
  6
Continuous
 62
     7
370
    25
100
AcDbCircle
 10
139.8323425481
 20
108.7440552885
 30
0.0
 40
16.30000000000001
  0
CIRCLE
  5
84
330
1F
100
AcDbEntity
  8
0
  6
Continuous
 62
     7
370
    25
100
AcDbCircle
 10
139.8323425481
 20
108.7440552885
 30
0.0
 40
20.00000000000001
  0
CIRCLE
  5
85
330
1F
100
AcDbEntity
  8
0
  6
Continuous
 62
     7
370
    25
100
AcDbCircle
 10
139.8323425481
 20
108.7440552885
 30
0.0
 40
15.3
  0
LINE
  5
86
330
1F
100
AcDbEntity
  8
0
  6
Continuous
 62
     7
370
    25
100
AcDbLine
 10
139.8323425481
 20
76.989790483
 30
0.0
 11
112.3323425481
 21
92.8669228857
 31
0.0
  0
LINE
  5
87
330
1F
100
AcDbEntity
  8
0
  6
Continuous
 62
     7
370
    25
100
AcDbLine
 10
112.3323425481
 20
92.8669228857
 30
0.0
 11
112.3323425481
 21
124.6211876912
 31
0.0
  0
LINE
  5
88
330
1F
100
AcDbEntity
  8
0
  6
Continuous
 62
     7
370
    25
100
AcDbLine
 10
112.3323425481
 20
124.6211876912
 30
0.0
 11
139.8323425481
 21
140.4983200939
 31
0.0
  0
LINE
  5
89
330
1F
100
AcDbEntity
  8
0
  6
Continuous
 62
     7
370
    25
100
AcDbLine
 10
139.8323425481
 20
140.4983200939
 30
0.0
 11
167.3323425481
 21
124.6211876912
 31
0.0
  0
LINE
  5
8A
330
1F
100
AcDbEntity
  8
0
  6
Continuous
 62
     7
370
    25
100
AcDbLine
 10
167.3323425481
 20
124.6211876912
 30
0.0
 11
167.3323425481
 21
92.8669228857
 31
0.0
  0
LINE
  5
8B
330
1F
100
AcDbEntity
  8
0
  6
Continuous
 62
     7
370
    25
100
AcDbLine
 10
167.3323425481
 20
92.8669228857
 30
0.0
 11
139.8323425481
 21
76.989790483
 31
0.0
  0
CIRCLE
  5
8C
330
1F
100
AcDbEntity
  8
0
  6
Continuous
 62
     7
370
    25
100
AcDbCircle
 10
139.8323425481
 20
108.7440552885
 30
0.0
 40
15.15000000000002
  0
INSERT
  5
98
330
1F
100
AcDbEntity
  8
FORMAT
 62
     7
100
AcDbBlockReference
  2
SW_CENTERMARKSYMBOL_0
 10
139.8323425481
 20
108.7440552885
 30
0.0
  0
LINE
  5
99
330
1F
100
AcDbEntity
  8
0
  6
Continuous
 62
     7
370
    25
100
AcDbLine
 10
166.3323425481
 20
178.7381417614
 30
0.0
 11
166.3323425481
 21
194.2381417614
 31
0.0
  0
LINE
  5
9A
330
1F
100
AcDbEntity
  8
0
  6
Continuous
 62
     7
370
    25
100
AcDbLine
 10
113.3323425481
 20
194.2381417614
 30
0.0
 11
113.3323425481
 21
178.7381417614
 31
0.0
  0
LINE
  5
9B
330
1F
100
AcDbEntity
  8
0
  6
Continuous
 62
     7
370
    25
100
AcDbLine
 10
159.8323425481
 20
209.7381417614
 30
0.0
 11
159.8323425481
 21
250.7381417614
 31
0.0
  0
LINE
  5
9C
330
1F
100
AcDbEntity
  8
0
  6
Continuous
 62
     7
370
    25
100
AcDbLine
 10
119.8323425481
 20
250.7381417614
 30
0.0
 11
119.8323425481
 21
209.7381417614
 31
0.0
  0
LINE
  5
9D
330
1F
100
AcDbEntity
  8
0
  6
Continuous
 62
     7
370
    25
100
AcDbLine
 10
166.3323425481
 20
178.7381417614
 30
0.0
 11
113.3323425481
 21
178.7381417614
 31
0.0
  0
LINE
  5
9E
330
1F
100
AcDbEntity
  8
0
  6
Continuous
 62
     7
370
    25
100
AcDbLine
 10
112.3323425481
 20
209.7381417614
 30
0.0
 11
112.3323425481
 21
194.2381417614
 31
0.0
  0
LINE
  5
9F
330
1F
100
AcDbEntity
  8
0
  6
Continuous
 62
     7
370
    25
100
AcDbLine
 10
139.8323425481
 20
209.7381417614
 30
0.0
 11
112.3323425481
 21
209.7381417614
 31
0.0
  0
LINE
  5
A0
330
1F
100
AcDbEntity
  8
0
  6
Continuous
 62
     7
370
    25
100
AcDbLine
 10
139.8323425481
 20
209.7381417614
 30
0.0
 11
139.8323425481
 21
194.2381417614
 31
0.0
  0
LINE
  5
A1
330
1F
100
AcDbEntity
  8
0
  6
Continuous
 62
     7
370
    25
100
AcDbLine
 10
112.3323425481
 20
194.2381417614
 30
0.0
 11
139.8323425481
 21
194.2381417614
 31
0.0
  0
LINE
  5
A2
330
1F
100
AcDbEntity
  8
0
  6
Continuous
 62
     7
370
    25
100
AcDbLine
 10
167.3323425481
 20
209.7381417614
 30
0.0
 11
139.8323425481
 21
209.7381417614
 31
0.0
  0
LINE
  5
A3
330
1F
100
AcDbEntity
  8
0
  6
Continuous
 62
     7
370
    25
100
AcDbLine
 10
167.3323425481
 20
209.7381417614
 30
0.0
 11
167.3323425481
 21
194.2381417614
 31
0.0
  0
LINE
  5
A4
330
1F
100
AcDbEntity
  8
0
  6
Continuous
 62
     7
370
    25
100
AcDbLine
 10
139.8323425481
 20
194.2381417614
 30
0.0
 11
167.3323425481
 21
194.2381417614
 31
0.0
  0
LINE
  5
A5
330
1F
100
AcDbEntity
  8
0
  6
Continuous
 62
     7
370
    25
100
AcDbLine
 10
159.8323425481
 20
250.7381417614
 30
0.0
 11
119.8323425481
 21
250.7381417614
 31
0.0
  0
LINE
  5
A6
330
1F
100
AcDbEntity
  8
0
  6
Continuous
 62
     7
370
    25
100
AcDbLine
 10
203.1635144644
 20
82.2440552885
 30
0.0
 11
218.6635144644
 21
82.2440552885
 31
0.0
  0
LINE
  5
A7
330
1F
100
AcDbEntity
  8
0
  6
Continuous
 62
     7
370
    25
100
AcDbLine
 10
218.6635144644
 20
135.2440552885
 30
0.0
 11
203.1635144644
 21
135.2440552885
 31
0.0
  0
LINE
  5
A8
330
1F
100
AcDbEntity
  8
0
  6
Continuous
 62
     7
370
    25
100
AcDbLine
 10
234.1635144644
 20
88.7440552885
 30
0.0
 11
275.1635144644
 21
88.7440552885
 31
0.0
  0
LINE
  5
A9
330
1F
100
AcDbEntity
  8
0
  6
Continuous
 62
     7
370
    25
100
AcDbLine
 10
275.1635144644
 20
128.7440552885
 30
0.0
 11
234.1635144644
 21
128.7440552885
 31
0.0
  0
LINE
  5
AA
330
1F
100
AcDbEntity
  8
0
  6
Continuous
 62
     7
370
    25
100
AcDbLine
 10
203.1635144644
 20
108.7440552885
 30
0.0
 11
203.1635144644
 21
135.2440552885
 31
0.0
  0
LINE
  5
AB
330
1F
100
AcDbEntity
  8
0
  6
Continuous
 62
     7
370
    25
100
AcDbLine
 10
203.1635144644
 20
82.2440552885
 30
0.0
 11
203.1635144644
 21
108.7440552885
 31
0.0
  0
LINE
  5
AC
330
1F
100
AcDbEntity
  8
0
  6
Continuous
 62
     7
370
    25
100
AcDbLine
 10
234.1635144644
 20
92.8669228857
 30
0.0
 11
218.6635144644
 21
92.8669228857
 31
0.0
  0
LINE
  5
AD
330
1F
100
AcDbEntity
  8
0
  6
Continuous
 62
     7
370
    25
100
AcDbLine
 10
234.1635144644
 20
76.989790483
 30
0.0
 11
234.1635144644
 21
92.8669228857
 31
0.0
  0
LINE
  5
AE
330
1F
100
AcDbEntity
  8
0
  6
Continuous
 62
     7
370
    25
100
AcDbLine
 10
234.1635144644
 20
76.989790483
 30
0.0
 11
218.6635144644
 21
76.989790483
 31
0.0
  0
LINE
  5
AF
330
1F
100
AcDbEntity
  8
0
  6
Continuous
 62
     7
370
    25
100
AcDbLine
 10
218.6635144644
 20
92.8669228857
 30
0.0
 11
218.6635144644
 21
76.989790483
 31
0.0
  0
LINE
  5
B0
330
1F
100
AcDbEntity
  8
0
  6
Continuous
 62
     7
370
    25
100
AcDbLine
 10
234.1635144644
 20
124.6211876912
 30
0.0
 11
218.6635144644
 21
124.6211876912
 31
0.0
  0
LINE
  5
B1
330
1F
100
AcDbEntity
  8
0
  6
Continuous
 62
     7
370
    25
100
AcDbLine
 10
234.1635144644
 20
92.8669228857
 30
0.0
 11
234.1635144644
 21
124.6211876912
 31
0.0
  0
LINE
  5
B2
330
1F
100
AcDbEntity
  8
0
  6
Continuous
 62
     7
370
    25
100
AcDbLine
 10
218.6635144644
 20
124.6211876912
 30
0.0
 11
218.6635144644
 21
92.8669228857
 31
0.0
  0
LINE
  5
B3
330
1F
100
AcDbEntity
  8
0
  6
Continuous
 62
     7
370
    25
100
AcDbLine
 10
234.1635144644
 20
140.4983200939
 30
0.0
 11
218.6635144644
 21
140.4983200939
 31
0.0
  0
LINE
  5
B4
330
1F
100
AcDbEntity
  8
0
  6
Continuous
 62
     7
370
    25
100
AcDbLine
 10
234.1635144644
 20
124.6211876912
 30
0.0
 11
234.1635144644
 21
140.4983200939
 31
0.0
  0
LINE
  5
B5
330
1F
100
AcDbEntity
  8
0
  6
Continuous
 62
     7
370
    25
100
AcDbLine
 10
218.6635144644
 20
140.4983200939
 30
0.0
 11
218.6635144644
 21
124.6211876912
 31
0.0
  0
LINE
  5
B6
330
1F
100
AcDbEntity
  8
0
  6
Continuous
 62
     7
370
    25
100
AcDbLine
 10
275.1635144644
 20
108.7440552885
 30
0.0
 11
275.1635144644
 21
128.7440552885
 31
0.0
  0
LINE
  5
B7
330
1F
100
AcDbEntity
  8
0
  6
Continuous
 62
     7
370
    25
100
AcDbLine
 10
275.1635144644
 20
88.7440552885
 30
0.0
 11
275.1635144644
 21
108.7440552885
 31
0.0
  0
LINE
  5
B8
330
1F
100
AcDbEntity
  8
0
  6
Continuous
 62
     7
370
    25
100
AcDbLine
 10
73.8617858112
 20
135.2440552885
 30
0.0
 11
58.3617858112
 21
135.2440552885
 31
0.0
  0
LINE
  5
B9
330
1F
100
AcDbEntity
  8
0
  6
Continuous
 62
     7
370
    25
100
AcDbLine
 10
58.3617858112
 20
82.2440552885
 30
0.0
 11
73.8617858112
 21
82.2440552885
 31
0.0
  0
LINE
  5
BA
330
1F
100
AcDbEntity
  8
0
  6
Continuous
 62
     7
370
    25
100
AcDbLine
 10
42.8617858112
 20
128.7440552885
 30
0.0
 11
1.8617858112
 21
128.7440552885
 31
0.0
  0
LINE
  5
BB
330
1F
100
AcDbEntity
  8
0
  6
Continuous
 62
     7
370
    25
100
AcDbLine
 10
1.8617858112
 20
88.7440552885
 30
0.0
 11
42.8617858112
 21
88.7440552885
 31
0.0
  0
LINE
  5
BC
330
1F
100
AcDbEntity
  8
0
  6
Continuous
 62
     7
370
    25
100
AcDbLine
 10
73.8617858112
 20
135.2440552885
 30
0.0
 11
73.8617858112
 21
82.2440552885
 31
0.0
  0
LINE
  5
BD
330
1F
100
AcDbEntity
  8
0
  6
Continuous
 62
     7
370
    25
100
AcDbLine
 10
42.8617858112
 20
124.6211876912
 30
0.0
 11
58.3617858112
 21
124.6211876912
 31
0.0
  0
LINE
  5
BE
330
1F
100
AcDbEntity
  8
0
  6
Continuous
 62
     7
370
    25
100
AcDbLine
 10
42.8617858112
 20
140.4983200939
 30
0.0
 11
42.8617858112
 21
124.6211876912
 31
0.0
  0
LINE
  5
BF
330
1F
100
AcDbEntity
  8
0
  6
Continuous
 62
     7
370
    25
100
AcDbLine
 10
42.8617858112
 20
140.4983200939
 30
0.0
 11
58.3617858112
 21
140.4983200939
 31
0.0
  0
LINE
  5
C0
330
1F
100
AcDbEntity
  8
0
  6
Continuous
 62
     7
370
    25
100
AcDbLine
 10
58.3617858112
 20
124.6211876912
 30
0.0
 11
58.3617858112
 21
140.4983200939
 31
0.0
  0
LINE
  5
C1
330
1F
100
AcDbEntity
  8
0
  6
Continuous
 62
     7
370
    25
100
AcDbLine
 10
42.8617858112
 20
92.8669228857
 30
0.0
 11
58.3617858112
 21
92.8669228857
 31
0.0
  0
LINE
  5
C2
330
1F
100
AcDbEntity
  8
0
  6
Continuous
 62
     7
370
    25
100
AcDbLine
 10
42.8617858112
 20
124.6211876912
 30
0.0
 11
42.8617858112
 21
92.8669228857
 31
0.0
  0
LINE
  5
C3
330
1F
100
AcDbEntity
  8
0
  6
Continuous
 62
     7
370
    25
100
AcDbLine
 10
58.3617858112
 20
92.8669228857
 30
0.0
 11
58.3617858112
 21
124.6211876912
 31
0.0
  0
LINE
  5
C4
330
1F
100
AcDbEntity
  8
0
  6
Continuous
 62
     7
370
    25
100
AcDbLine
 10
42.8617858112
 20
76.989790483
 30
0.0
 11
58.3617858112
 21
76.989790483
 31
0.0
  0
LINE
  5
C5
330
1F
100
AcDbEntity
  8
0
  6
Continuous
 62
     7
370
    25
100
AcDbLine
 10
42.8617858112
 20
92.8669228857
 30
0.0
 11
42.8617858112
 21
76.989790483
 31
0.0
  0
LINE
  5
C6
330
1F
100
AcDbEntity
  8
0
  6
Continuous
 62
     7
370
    25
100
AcDbLine
 10
58.3617858112
 20
76.989790483
 30
0.0
 11
58.3617858112
 21
92.8669228857
 31
0.0
  0
LINE
  5
C7
330
1F
100
AcDbEntity
  8
0
  6
Continuous
 62
     7
370
    25
100
AcDbLine
 10
1.8617858112
 20
128.7440552885
 30
0.0
 11
1.8617858112
 21
88.7440552885
 31
0.0
  0
LINE
  5
C8
330
1F
100
AcDbEntity
  8
0
  6
Continuous
 62
     7
370
    25
100
AcDbLine
 10
276.3909523939
 20
22.164513437
 30
0.0
 11
271.6273105607
 21
24.9145053321
 31
0.0
  0
LINE
  5
C9
330
1F
100
AcDbEntity
  8
0
  6
Continuous
 62
     7
370
    25
100
AcDbLine
 10
242.6095352304
 20
-19.5313603759
 30
0.0
 11
249.893105979
 21
-23.7360762692
 31
0.0
  0
LINE
  5
CA
330
1F
100
AcDbEntity
  8
0
  6
Continuous
 62
     7
370
    25
100
AcDbLine
 10
251.220906296
 20
29.1895215648
 30
0.0
 11
222.2295282674
 21
45.9258878572
 31
0.0
  0
LINE
  5
CB
330
1F
100
AcDbEntity
  8
0
  6
Continuous
 62
     7
370
    25
100
AcDbLine
 10
202.2311536147
 20
11.2839333619
 30
0.0
 11
231.2225316433
 21
-5.4524329304
 31
0.0
  0
LWPOLYLINE
  5
CC
330
1F
100
AcDbEntity
  8
0
  6
Continuous
 62
     7
370
    25
100
AcDbPolyline
 90
       61
 70
   128
 43
0.0
 10
276.3909523939
 20
22.164513437
 10
276.4806746493
 20
22.112011675
 10
277.1678703708
 20
21.6600322654
 10
277.8146259612
 20
21.1433357644
 10
278.4190766568
 20
20.5634119417
 10
278.9794796698
 20
19.9219328679
 10
279.4942192131
 20
19.2207480931
 10
279.9618111595
 20
18.4618793147
 10
280.3809073203
 20
17.6475145477
 10
280.7502993328
 20
16.7800018165
 10
281.0689221441
 20
15.8618423851
 10
281.3358570823
 20
14.8956835446
 10
281.5503345048
 20
13.8843109811
 10
281.7117360177
 20
12.8306407436
 10
281.8195962586
 20
11.7377108361
 10
281.8736042386
 20
10.6086724584
 10
281.8736042386
 20
9.4467809206
 10
281.8195962586
 20
8.2553862566
 10
281.7117360177
 20
7.0379235656
 10
281.5503345048
 20
5.7979031079
 10
281.3358570823
 20
4.5389001834
 10
281.0689221441
 20
3.2645448234
 10
280.7502993328
 20
1.9785113244
 10
280.3809073203
 20
0.6845076538
 10
279.9618111595
 20
-0.6137352409
 10
279.4942192131
 20
-1.9124741891
 10
278.9794796698
 20
-3.2079645905
 10
278.4190766568
 20
-4.4964712107
 10
277.8146259612
 20
-5.7742789516
 10
277.1678703708
 20
-7.0377035628
 10
276.4806746493
 20
-8.283102264
 10
275.75502016
 20
-9.5068842483
 10
274.9929991525
 20
-10.7055210355
 10
274.1968087308
 20
-11.8755566455
 10
273.3687445178
 20
-13.0136175626
 10
272.5111940372
 20
-14.1164224627
 10
271.6266298289
 20
-15.1807916738
 10
270.7176023205
 20
-16.2036563437
 10
269.7867324736
 20
-17.1820672891
 10
268.8367042271
 20
-18.1132034977
 10
267.8702567582
 20
-18.9943802629
 10
266.8901765852
 20
-19.8230569239
 10
265.899289533
 20
-20.5968441914
 10
264.9004525854
 20
-21.3135110364
 10
263.896545648
 20
-21.9709911228
 10
262.8904632442
 20
-22.5673887655
 10
261.8851061703
 20
-23.1009843954
 10
260.8833731307
 20
-23.5702395185
 10
259.8881523813
 20
-23.9738011505
 10
258.902313401
 20
-24.310505719
 10
257.9286986189
 20
-24.5793824174
 10
256.9701152184
 20
-24.7796560046
 10
256.0293270436
 20
-24.9107490401
 10
255.1090466303
 20
-24.9722835486
 10
254.2119273853
 20
-24.9640821102
 10
253.3405559355
 20
-24.8861683719
 10
252.4974446704
 20
-24.7387669791
 10
251.6850244981
 20
-24.5223029282
 10
250.9056378362
 20
-24.237400341
 10
250.1615318582
 20
-23.8848806655
 10
249.893105979
 20
-23.7360762692
  0
LWPOLYLINE
  5
CD
330
1F
100
AcDbEntity
  8
0
  6
Continuous
 62
     7
370
    25
100
AcDbPolyline
 90
      103
 70
   128
 43
0.0
 10
198.0882053173
 20
20.4408294913
 10
198.1150282995
 20
21.4616539149
 10
198.1953954975
 20
22.5095751578
 10
198.3290020508
 20
23.5806180959
 10
198.5153411441
 20
24.6707198965
 10
198.7537059294
 20
25.77574543
 10
199.0431922074
 20
26.8915029561
 10
199.3827018575
 20
28.0137600243
 10
199.7709470033
 20
29.1382595292
 10
200.2064548979
 20
30.2607358589
 10
200.6875735108
 20
31.3769310763
 10
201.2124777943
 20
32.4826110706
 10
201.7791766065
 20
33.5735816188
 10
202.3855202649
 20
34.645704296
 10
203.0292087003
 20
35.6949121736
 10
203.7078001818
 20
36.7172252467
 10
204.4187205796
 20
37.7087655318
 10
205.1592731292
 20
38.6657717768
 10
205.9266486609
 20
39.5846137293
 10
206.7179362567
 20
40.4618059071
 10
207.5301342916
 20
41.2940208197
 10
208.3601618202
 20
42.0781015909
 10
209.2048702639
 20
42.8110739338
 10
210.0610553542
 20
43.4901574333
 10
210.9254692877
 20
44.1127760929
 10
211.7948330464
 20
44.676568107
 10
212.6658488357
 20
45.1793948191
 10
213.5352125943
 20
45.6193488355
 10
214.3996265279
 20
45.9947612598
 10
215.2558116181
 20
46.3042080242
 10
216.1005200618
 20
46.5465152909
 10
216.9305475905
 20
46.7207639057
 10
217.7427456253
 20
46.8262928837
 10
218.5340332211
 20
46.8627019175
 10
219.3014087529
 20
46.829852895
 10
220.0419613024
 20
46.727870424
 10
220.7528817003
 20
46.5571413588
 10
221.4314731818
 20
46.3183133333
 10
222.0751616171
 20
46.012292304
 10
222.6815052755
 20
45.6402391134
 10
223.2482040878
 20
45.2035650867
 10
223.7731083712
 20
44.7039266781
 10
224.2542269841
 20
44.1432191873
 10
224.6897348788
 20
43.5235695698
 10
225.0779800245
 20
42.8473283688
 10
225.4174896746
 20
42.1170607988
 10
225.7069759526
 20
41.3355370149
 10
225.9453407379
 20
40.5057216045
 10
226.1316798312
 20
39.6307623416
 10
226.2652863846
 20
38.7139782465
 10
226.3456535825
 20
37.7588469952
 10
226.3724765648
 20
36.7689917278
 10
226.3456535825
 20
35.7481673042
 10
226.2652863846
 20
34.7002460613
 10
226.1316798312
 20
33.6292031232
 10
225.9453407379
 20
32.5391013226
 10
225.7069759526
 20
31.4340757891
 10
225.4174896746
 20
30.318318263
 10
225.0779800245
 20
29.1960611948
 10
224.6897348788
 20
28.0715616899
 10
224.2542269841
 20
26.9490853602
 10
223.7731083712
 20
25.8328901428
 10
223.2482040878
 20
24.7272101485
 10
222.6815052755
 20
23.6362396003
 10
222.0751616171
 20
22.5641169231
 10
221.4314731818
 20
21.5149090455
 10
220.7528817003
 20
20.4925959723
 10
220.0419613024
 20
19.5010556873
 10
219.3014087529
 20
18.5440494423
 10
218.5340332211
 20
17.6252074897
 10
217.7427456253
 20
16.748015312
 10
216.9305475905
 20
15.9158003994
 10
216.1005200618
 20
15.1317196282
 10
215.2558116181
 20
14.3987472853
 10
214.3996265279
 20
13.7196637858
 10
213.5352125943
 20
13.0970451262
 10
212.6658488357
 20
12.5332531121
 10
211.7948330464
 20
12.0304263999
 10
210.9254692877
 20
11.5904723835
 10
210.0610553542
 20
11.2150599592
 10
209.2048702639
 20
10.9056131949
 10
208.3601618202
 20
10.6633059282
 10
207.5301342916
 20
10.4890573134
 10
206.7179362567
 20
10.3835283354
 10
205.9266486609
 20
10.3471193016
 10
205.1592731292
 20
10.379968324
 10
204.4187205796
 20
10.4819507951
 10
203.7078001818
 20
10.6526798602
 10
203.0292087003
 20
10.8915078858
 10
202.3855202649
 20
11.1975289151
 10
201.7791766065
 20
11.5695821057
 10
201.2124777943
 20
12.0062561324
 10
200.6875735108
 20
12.5058945409
 10
200.2064548979
 20
13.0666020318
 10
199.7709470033
 20
13.6862516493
 10
199.3827018575
 20
14.3624928503
 10
199.0431922074
 20
15.0927604203
 10
198.7537059294
 20
15.8742842042
 10
198.5153411441
 20
16.7040996146
 10
198.3290020508
 20
17.5790588775
 10
198.1953954975
 20
18.4958429726
 10
198.1150282995
 20
19.4509742239
 10
198.0882053173
 20
20.4408294913
  0
LWPOLYLINE
  5
CE
330
1F
100
AcDbEntity
  8
0
  6
Continuous
 62
     7
370
    25
100
AcDbPolyline
 90
       53
 70
   128
 43
0.0
 10
251.220906296
 20
29.1895215648
 10
251.6728833042
 20
28.903872821
 10
252.2395821164
 20
28.4671987943
 10
252.7644863999
 20
27.9675603858
 10
253.2456050128
 20
27.4068528949
 10
253.6811129074
 20
26.7872032774
 10
254.0693580532
 20
26.1109620764
 10
254.4088677033
 20
25.3806945064
 10
254.6983539813
 20
24.5991707225
 10
254.9367187666
 20
23.7693553121
 10
255.1230578599
 20
22.8943960493
 10
255.2566644132
 20
21.9776119541
 10
255.3370316112
 20
21.0224807029
 10
255.3638545934
 20
20.0326254354
 10
255.3370316112
 20
19.0118010119
 10
255.2566644132
 20
17.9638797689
 10
255.1230578599
 20
16.8928368308
 10
254.9367187666
 20
15.8027350302
 10
254.6983539813
 20
14.6977094967
 10
254.4088677033
 20
13.5819519706
 10
254.0693580532
 20
12.4596949024
 10
253.6811129074
 20
11.3351953975
 10
253.2456050128
 20
10.2127190678
 10
252.7644863999
 20
9.0965238504
 10
252.2395821164
 20
7.9908438561
 10
251.6728833042
 20
6.8998733079
 10
251.0665396458
 20
5.8277506307
 10
250.4228512104
 20
4.7785427531
 10
249.7442597289
 20
3.75622968
 10
249.0333393311
 20
2.7646893949
 10
248.2927867815
 20
1.8076831499
 10
247.5254112498
 20
0.8888411974
 10
246.734123654
 20
0.0116490196
 10
245.9219256191
 20
-0.820565893
 10
245.0918980905
 20
-1.6046466642
 10
244.2471896468
 20
-2.3376190071
 10
243.3910045565
 20
-3.0167025066
 10
242.526590623
 20
-3.6393211662
 10
241.6572268643
 20
-4.2031131802
 10
240.786211075
 20
-4.7059398924
 10
239.9168473164
 20
-5.1458939088
 10
239.0524333828
 20
-5.5213063331
 10
238.1962482926
 20
-5.8307530975
 10
237.3515398489
 20
-6.0730603642
 10
236.5215123202
 20
-6.2473089789
 10
235.7093142854
 20
-6.352837957
 10
234.9180266896
 20
-6.3892469908
 10
234.1506511578
 20
-6.3563979683
 10
233.4100986083
 20
-6.2544154973
 10
232.6991782104
 20
-6.0836864321
 10
232.0205867289
 20
-5.8448584066
 10
231.3768982936
 20
-5.5388373773
 10
231.2225316433
 20
-5.4524329304
  0
LWPOLYLINE
  5
CF
330
1F
100
AcDbEntity
  8
0
  6
Continuous
 62
     7
370
    25
100
AcDbPolyline
 90
       93
 70
   128
 43
0.0
 10
200.7045004077
 20
21.9511844982
 10
200.7313698022
 20
22.874976134
 10
200.8118527084
 20
23.8254833694
 10
200.9455738777
 20
24.7982745008
 10
201.1319098403
 20
25.788813927
 10
201.3699918119
 20
26.7924832959
 10
201.6587097445
 20
27.8046030376
 10
201.9967175018
 20
28.8204541827
 10
202.3824391356
 20
29.8353003641
 10
202.8140762336
 20
30.8444099004
 10
203.2896163045
 20
31.8430778573
 10
203.8068421607
 20
32.8266479837
 10
204.3633422568
 20
33.7905344216
 10
204.9565219322
 20
34.7302430876
 10
205.5836155096
 20
35.6413926259
 10
206.2416991892
 20
36.5197348369
 10
206.9277046812
 20
37.3611744837
 10
207.6384335112
 20
38.1617883863
 10
208.3705719333
 20
38.9178437131
 10
209.1207063803
 20
39.625815385
 10
209.885339379
 20
40.2824025115
 10
210.6609058576
 20
40.8845437802
 10
211.443789767
 20
41.4294317305
 10
212.230340941
 20
41.9145258433
 10
213.0168921151
 20
42.3375643859
 10
213.7997760245
 20
42.6965749573
 10
214.575342503
 20
42.9898836846
 10
215.3399755018
 20
43.2161230271
 10
216.0901099488
 20
43.3742381524
 10
216.8222483709
 20
43.4634918549
 10
217.5329772009
 20
43.4834679927
 10
218.2189826928
 20
43.4340734277
 10
218.8770663724
 20
43.3155384602
 10
219.5041599498
 20
43.128415755
 10
220.0973396253
 20
42.8735777645
 10
220.6538397213
 20
42.552212661
 10
221.1710655776
 20
42.165818797
 10
221.6466056484
 20
41.7161977191
 10
222.0782427464
 20
41.2054457682
 10
222.4639643802
 20
40.6359443058
 10
222.8019721376
 20
40.0103486105
 10
223.0906900702
 20
39.3315754984
 10
223.3287720418
 20
38.6027897228
 10
223.5151080044
 20
37.8273892197
 10
223.6488291737
 20
37.008989264
 10
223.7293120798
 20
36.1514056141
 10
223.7561814744
 20
35.2586367209
 10
223.7293120798
 20
34.3348450851
 10
223.6488291737
 20
33.3843378497
 10
223.5151080044
 20
32.4115467182
 10
223.3287720418
 20
31.421007292
 10
223.0906900702
 20
30.4173379231
 10
222.8019721376
 20
29.4052181814
 10
222.4639643802
 20
28.3893670364
 10
222.0782427464
 20
27.374520855
 10
221.6466056484
 20
26.3654113186
 10
221.1710655776
 20
25.3667433617
 10
220.6538397213
 20
24.3831732354
 10
220.0973396253
 20
23.4192867974
 10
219.5041599498
 20
22.4795781315
 10
218.8770663724
 20
21.5684285932
 10
218.2189826928
 20
20.6900863822
 10
217.5329772009
 20
19.8486467354
 10
216.8222483709
 20
19.0480328328
 10
216.0901099488
 20
18.291977506
 10
215.3399755018
 20
17.584005834
 10
214.575342503
 20
16.9274187076
 10
213.7997760245
 20
16.3252774389
 10
213.0168921151
 20
15.7803894886
 10
212.230340941
 20
15.2952953758
 10
211.443789767
 20
14.8722568332
 10
210.6609058576
 20
14.5132462617
 10
209.885339379
 20
14.2199375344
 10
209.1207063803
 20
13.993698192
 10
208.3705719333
 20
13.8355830667
 10
207.6384335112
 20
13.7463293642
 10
206.9277046812
 20
13.7263532264
 10
206.2416991892
 20
13.7757477914
 10
205.5836155096
 20
13.8942827589
 10
204.9565219322
 20
14.0814054641
 10
204.3633422568
 20
14.3362434546
 10
203.8068421607
 20
14.6576085581
 10
203.2896163045
 20
15.0440024221
 10
202.8140762336
 20
15.4936235
 10
202.3824391356
 20
16.0043754509
 10
201.9967175018
 20
16.5738769133
 10
201.6587097445
 20
17.1994726085
 10
201.3699918119
 20
17.8782457207
 10
201.1319098403
 20
18.6070314962
 10
200.9455738777
 20
19.3824319994
 10
200.8118527084
 20
20.2008319551
 10
200.7313698022
 20
21.058415605
 10
200.7045004077
 20
21.9511844982
  0
LWPOLYLINE
  5
D0
330
1F
100
AcDbEntity
  8
0
  6
Continuous
 62
     7
370
    25
100
AcDbPolyline
 90
       29
 70
   128
 43
0.0
 10
207.7755682196
 20
17.8691439391
 10
207.8024376141
 20
18.7929355749
 10
207.8829205203
 20
19.7434428103
 10
208.0166416895
 20
20.7162339417
 10
208.2029776521
 20
21.7067733679
 10
208.4410596238
 20
22.7104427368
 10
208.7297775564
 20
23.7225624785
 10
209.0677853137
 20
24.7384136236
 10
209.4535069475
 20
25.7532598049
 10
209.8851440455
 20
26.7623693413
 10
210.3606841163
 20
27.7610372982
 10
210.8779099726
 20
28.7446074246
 10
211.4344100686
 20
29.7084938625
 10
212.0275897441
 20
30.6482025284
 10
212.6546833215
 20
31.5593520668
 10
213.3127670011
 20
32.4376942778
 10
213.998772493
 20
33.2791339246
 10
214.709501323
 20
34.0797478272
 10
215.4416397451
 20
34.8358031539
 10
216.1917741921
 20
35.5437748259
 10
216.9564071909
 20
36.2003619524
 10
217.7319736695
 20
36.8025032211
 10
218.5148575788
 20
37.3473911714
 10
219.3014087529
 20
37.8324852842
 10
220.0879599269
 20
38.2555238268
 10
220.8708438363
 20
38.6145343982
 10
221.6464103149
 20
38.9078431255
 10
222.4110433137
 20
39.1340824679
 10
223.1086105101
 20
39.2832597352
  0
ARC
  5
D1
330
1F
100
AcDbEntity
  8
0
  6
Continuous
 62
     7
370
    25
100
AcDbCircle
 10
219.5445222524
 20
17.6983859907
 30
0.0
 40
11.77019274715738
100
AcDbArc
 50
179.16874318
 51
199.112607787
  0
LWPOLYLINE
  5
D2
330
1F
100
AcDbEntity
  8
0
  6
Continuous
 62
     7
370
    25
100
AcDbPolyline
 90
       28
 70
   128
 43
0.0
 10
209.1897817819
 20
17.8691439391
 10
209.2167309756
 20
18.7659498424
 10
209.2974442971
 20
19.6894027805
 10
209.4315196367
 20
20.6349021574
 10
209.6182890379
 20
21.5977375427
 10
209.8568220248
 20
22.5731121389
 10
210.1459302381
 20
23.5561666789
 10
210.4841733553
 20
24.5420036343
 10
210.8698662661
 20
25.5257116152
 10
211.3010874679
 20
26.5023898377
 10
211.7756886383
 20
27.4671725402
 10
212.2913053381
 20
28.4152532237
 10
212.845368791
 20
29.3419085979
 10
213.4351186807
 20
30.2425221125
 10
214.0576169028
 20
31.112606956
 10
214.7097622025
 20
31.9478284098
 10
215.3883056248
 20
32.7440254424
 10
216.0898667005
 20
33.4972314403
 10
216.8109502876
 20
34.2036939691
 10
217.5479639839
 20
34.859893468
 10
218.2972360242
 20
35.4625607841
 10
219.0550335729
 20
36.0086934593
 10
219.8175813209
 20
36.4955706879
 10
220.5810802935
 20
36.920766872
 10
221.3417267772
 20
37.2821637058
 10
222.0957312696
 20
37.5779607283
 10
222.8393373582
 20
37.8066842937
 10
223.4891471339
 20
37.9528589364
  0
ARC
  5
D3
330
1F
100
AcDbEntity
  8
0
  6
Continuous
 62
     7
370
    25
100
AcDbCircle
 10
220.2616039969
 20
17.7078742629
 30
0.0
 40
11.07299666161083
100
AcDbArc
 50
179.1655015543
 51
198.5767766635
  0
LINE
  5
D4
330
1F
100
AcDbEntity
  8
0
  6
Continuous
 62
     7
370
    25
100
AcDbLine
 10
241.2217189697
 20
-14.0601088479
 30
0.0
 11
221.776282487
 21
-12.3213938029
 31
0.0
  0
LINE
  5
D5
330
1F
100
AcDbEntity
  8
0
  6
Continuous
 62
     7
370
    25
100
AcDbLine
 10
221.776282487
 20
-12.3213938029
 30
0.0
 11
221.776282487
 21
0.0007706328
 31
0.0
  0
LINE
  5
D6
330
1F
100
AcDbEntity
  8
0
  6
Continuous
 62
     7
370
    25
100
AcDbLine
 10
239.6649727598
 20
35.8606199969
 30
0.0
 11
241.2217189697
 21
37.7971974822
 31
0.0
  0
LINE
  5
D7
330
1F
100
AcDbEntity
  8
0
  6
Continuous
 62
     7
370
    25
100
AcDbLine
 10
241.2217189697
 20
37.7971974822
 30
0.0
 11
260.6671554523
 21
36.0584824373
 31
0.0
  0
LINE
  5
D8
330
1F
100
AcDbEntity
  8
0
  6
Continuous
 62
     7
370
    25
100
AcDbLine
 10
260.6671554523
 20
36.0584824373
 30
0.0
 11
260.6671554523
 21
10.1298292722
 31
0.0
  0
LINE
  5
D9
330
1F
100
AcDbEntity
  8
0
  6
Continuous
 62
     7
370
    25
100
AcDbLine
 10
260.6671554523
 20
10.1298292722
 30
0.0
 11
241.2217189697
 21
-14.0601088479
 31
0.0
  0
LINE
  5
DA
330
1F
100
AcDbEntity
  8
0
  6
Continuous
 62
     7
370
    25
100
AcDbLine
 10
241.2217189697
 20
-14.0601088479
 30
0.0
 11
252.1818740781
 21
-20.3872717145
 31
0.0
  0
LINE
  5
DB
330
1F
100
AcDbEntity
  8
0
  6
Continuous
 62
     7
370
    25
100
AcDbLine
 10
260.6671554523
 20
10.1298292722
 30
0.0
 11
271.6273105607
 21
3.8026664056
 31
0.0
  0
LINE
  5
DC
330
1F
100
AcDbEntity
  8
0
  6
Continuous
 62
     7
370
    25
100
AcDbLine
 10
252.1818740781
 20
-20.3872717145
 30
0.0
 11
271.6273105607
 21
3.8026664056
 31
0.0
  0
LINE
  5
DD
330
1F
100
AcDbEntity
  8
0
  6
Continuous
 62
     7
370
    25
100
AcDbLine
 10
260.6671554523
 20
36.0584824373
 30
0.0
 11
271.6273105607
 21
29.7313195706
 31
0.0
  0
LINE
  5
DE
330
1F
100
AcDbEntity
  8
0
  6
Continuous
 62
     7
370
    25
100
AcDbLine
 10
271.6273105607
 20
3.8026664056
 30
0.0
 11
271.6273105607
 21
29.7313195706
 31
0.0
  0
LINE
  5
DF
330
1F
100
AcDbEntity
  8
0
  6
Continuous
 62
     7
370
    25
100
AcDbLine
 10
221.776282487
 20
-12.3213938029
 30
0.0
 11
232.7364375954
 21
-18.6485566695
 31
0.0
  0
LINE
  5
E0
330
1F
100
AcDbEntity
  8
0
  6
Continuous
 62
     7
370
    25
100
AcDbLine
 10
232.7364375954
 20
-18.6485566695
 30
0.0
 11
252.1818740781
 21
-20.3872717145
 31
0.0
  0
LINE
  5
E1
330
1F
100
AcDbEntity
  8
0
  6
Continuous
 62
     7
370
    25
100
AcDbLine
 10
113.3323425481
 20
34.55569775
 30
0.0
 11
113.3323425481
 21
19.05569775
 31
0.0
  0
LINE
  5
E2
330
1F
100
AcDbEntity
  8
0
  6
Continuous
 62
     7
370
    25
100
AcDbLine
 10
166.3323425481
 20
19.05569775
 30
0.0
 11
166.3323425481
 21
34.55569775
 31
0.0
  0
LINE
  5
E3
330
1F
100
AcDbEntity
  8
0
  6
Continuous
 62
     7
370
    25
100
AcDbLine
 10
119.8323425481
 20
3.55569775
 30
0.0
 11
119.8323425481
 21
-37.44430225
 31
0.0
  0
LINE
  5
E4
330
1F
100
AcDbEntity
  8
0
  6
Continuous
 62
     7
370
    25
100
AcDbLine
 10
159.8323425481
 20
-37.44430225
 30
0.0
 11
159.8323425481
 21
3.55569775
 31
0.0
  0
LINE
  5
E5
330
1F
100
AcDbEntity
  8
0
  6
Continuous
 62
     7
370
    25
100
AcDbLine
 10
113.3323425481
 20
34.55569775
 30
0.0
 11
166.3323425481
 21
34.55569775
 31
0.0
  0
LINE
  5
E6
330
1F
100
AcDbEntity
  8
0
  6
Continuous
 62
     7
370
    25
100
AcDbLine
 10
167.3323425481
 20
3.55569775
 30
0.0
 11
167.3323425481
 21
19.05569775
 31
0.0
  0
LINE
  5
E7
330
1F
100
AcDbEntity
  8
0
  6
Continuous
 62
     7
370
    25
100
AcDbLine
 10
139.8323425481
 20
3.55569775
 30
0.0
 11
167.3323425481
 21
3.55569775
 31
0.0
  0
LINE
  5
E8
330
1F
100
AcDbEntity
  8
0
  6
Continuous
 62
     7
370
    25
100
AcDbLine
 10
139.8323425481
 20
3.55569775
 30
0.0
 11
139.8323425481
 21
19.05569775
 31
0.0
  0
LINE
  5
E9
330
1F
100
AcDbEntity
  8
0
  6
Continuous
 62
     7
370
    25
100
AcDbLine
 10
167.3323425481
 20
19.05569775
 30
0.0
 11
139.8323425481
 21
19.05569775
 31
0.0
  0
LINE
  5
EA
330
1F
100
AcDbEntity
  8
0
  6
Continuous
 62
     7
370
    25
100
AcDbLine
 10
112.3323425481
 20
3.55569775
 30
0.0
 11
139.8323425481
 21
3.55569775
 31
0.0
  0
LINE
  5
EB
330
1F
100
AcDbEntity
  8
0
  6
Continuous
 62
     7
370
    25
100
AcDbLine
 10
112.3323425481
 20
3.55569775
 30
0.0
 11
112.3323425481
 21
19.05569775
 31
0.0
  0
LINE
  5
EC
330
1F
100
AcDbEntity
  8
0
  6
Continuous
 62
     7
370
    25
100
AcDbLine
 10
139.8323425481
 20
19.05569775
 30
0.0
 11
112.3323425481
 21
19.05569775
 31
0.0
  0
LINE
  5
ED
330
1F
100
AcDbEntity
  8
0
  6
Continuous
 62
     7
370
    25
100
AcDbLine
 10
119.8323425481
 20
-37.44430225
 30
0.0
 11
159.8323425481
 21
-37.44430225
 31
0.0
  0
ENDSEC
  0
SECTION
  2
OBJECTS
  0
DICTIONARY
  5
C
330
0
100
AcDbDictionary
281
     1
  3
ACAD_GROUP
350
D
  3
ACAD_LAYOUT
350
1A
  3
ACAD_MLINESTYLE
350
17
  3
ACAD_PLOTSETTINGS
350
19
  3
ACAD_PLOTSTYLENAME
350
E
  3
ACAD_SCALELIST
350
47
  3
DWGPROPS
350
EE
  0
DICTIONARY
  5
D
102
{ACAD_REACTORS
330
C
102
}
330
C
100
AcDbDictionary
281
     1
  0
DICTIONARY
  5
1A
102
{ACAD_REACTORS
330
C
102
}
330
C
100
AcDbDictionary
281
     1
  3
Layout1
350
1E
  3
Layout2
350
26
  3
Model
350
22
  0
DICTIONARY
  5
17
102
{ACAD_REACTORS
330
C
102
}
330
C
100
AcDbDictionary
281
     1
  3
Standard
350
18
  0
DICTIONARY
  5
19
102
{ACAD_REACTORS
330
C
102
}
330
C
100
AcDbDictionary
281
     1
  0
ACDBDICTIONARYWDFLT
  5
E
102
{ACAD_REACTORS
330
C
102
}
330
C
100
AcDbDictionary
281
     1
  3
Normal
350
F
100
AcDbDictionaryWithDefault
340
F
  0
DICTIONARY
  5
47
102
{ACAD_REACTORS
330
C
102
}
330
C
100
AcDbDictionary
281
     1
  3
A0
350
48
  3
A1
350
49
  3
A2
350
4A
  3
A3
350
4B
  3
A4
350
4C
  3
A5
350
4D
  3
A6
350
4E
  3
A7
350
4F
  3
A8
350
50
  3
A9
350
51
  3
B0
350
52
  3
B1
350
53
  3
B2
350
54
  3
B3
350
55
  3
B4
350
56
  3
B5
350
57
  3
B6
350
58
  3
B7
350
59
  3
B8
350
5A
  3
B9
350
5B
  3
C0
350
5C
  3
C1
350
5D
  3
C2
350
5E
  3
C3
350
5F
  3
C4
350
60
  3
C5
350
61
  3
C6
350
62
  3
C7
350
63
  3
C8
350
64
  3
C9
350
65
  3
D0
350
66
  3
D1
350
67
  3
D2
350
68
  0
XRECORD
  5
EE
102
{ACAD_REACTORS
330
C
102
}
330
C
100
AcDbXrecord
280
     1
  1
DWGPROPS COOKIE
  2

  3

  4

  6

  7

  8
b.kav
  9

300
=
301
=
302
=
303
=
304
=
305
=
306
=
307
=
308
=
309
=
 40
0.0
 41
2459935.584296042
 42
2459935.584296215
  1

 90
        0
  0
LAYOUT
  5
1E
102
{ACAD_REACTORS
330
1A
102
}
330
1A
100
AcDbPlotSettings
  1

  2
none_device
  4

  6

 40
0.0
 41
0.0
 42
0.0
 43
0.0
 44
0.0
 45
0.0
 46
0.0
 47
0.0
 48
0.0
 49
0.0
140
0.0
141
0.0
142
1.0
143
1.0
 70
   688
 72
     1
 73
     0
 74
     5
  7

 75
    16
147
1.0
148
0.0
149
0.0
100
AcDbLayout
  1
Layout1
 70
     1
 71
     1
 10
0.0
 20
0.0
 11
420.0
 21
297.0
 12
0.0
 22
0.0
 32
0.0
 14
1.0000000000E+20
 24
1.0000000000E+20
 34
1.0000000000E+20
 15
-1.0000000000E+20
 25
-1.0000000000E+20
 35
-1.0000000000E+20
146
0.0
 13
0.0
 23
0.0
 33
0.0
 16
1.0
 26
0.0
 36
0.0
 17
0.0
 27
1.0
 37
0.0
 76
     0
330
1B
  0
LAYOUT
  5
26
102
{ACAD_REACTORS
330
1A
102
}
330
1A
100
AcDbPlotSettings
  1

  2
none_device
  4

  6

 40
0.0
 41
0.0
 42
0.0
 43
0.0
 44
0.0
 45
0.0
 46
0.0
 47
0.0
 48
0.0
 49
0.0
140
0.0
141
0.0
142
1.0
143
1.0
 70
   688
 72
     1
 73
     0
 74
     5
  7

 75
    16
147
1.0
148
0.0
149
0.0
100
AcDbLayout
  1
Layout2
 70
     1
 71
     2
 10
0.0
 20
0.0
 11
0.0
 21
0.0
 12
0.0
 22
0.0
 32
0.0
 14
0.0
 24
0.0
 34
0.0
 15
0.0
 25
0.0
 35
0.0
146
0.0
 13
0.0
 23
0.0
 33
0.0
 16
1.0
 26
0.0
 36
0.0
 17
0.0
 27
1.0
 37
0.0
 76
     0
330
23
  0
LAYOUT
  5
22
102
{ACAD_REACTORS
330
1A
102
}
330
1A
100
AcDbPlotSettings
  1

  2
none_device
  4
Letter_(8.50_x_11.00_Inches)
  6

 40
6.35
 41
6.35
 42
6.35000508
 43
6.35000508
 44
215.9
 45
279.4
 46
0.0
 47
0.0
 48
0.0
 49
0.0
140
0.0
141
0.0
142
1.0
143
1.0
 70
  1712
 72
     1
 73
     0
 74
     0
  7

 75
     0
147
1.0
148
0.0
149
0.0
100
AcDbLayout
  1
Model
 70
     1
 71
     0
 10
0.0
 20
0.0
 11
279.4
 21
215.9
 12
0.0
 22
0.0
 32
0.0
 14
0.0
 24
0.0
 34
0.0
 15
279.4
 25
215.9
 35
0.0
146
0.0
 13
0.0
 23
0.0
 33
0.0
 16
1.0
 26
0.0
 36
0.0
 17
0.0
 27
1.0
 37
0.0
 76
     0
330
1F
331
29
  0
MLINESTYLE
  5
18
102
{ACAD_REACTORS
330
17
102
}
330
17
100
AcDbMlineStyle
  2
Standard
 70
     0
  3

 62
   256
 51
90.0
 52
90.0
 71
     2
 49
0.5
 62
   256
  6
BYLAYER
 49
-0.5
 62
   256
  6
BYLAYER
  0
ACDBPLACEHOLDER
  5
F
102
{ACAD_REACTORS
330
E
102
}
330
E
  0
SCALE
  5
48
102
{ACAD_REACTORS
330
47
102
}
330
47
100
AcDbScale
 70
     0
300
1:1
140
1.0
141
1.0
290
     1
  0
SCALE
  5
49
102
{ACAD_REACTORS
330
47
102
}
330
47
100
AcDbScale
 70
     0
300
1:2
140
1.0
141
2.0
290
     0
  0
SCALE
  5
4A
102
{ACAD_REACTORS
330
47
102
}
330
47
100
AcDbScale
 70
     0
300
1:4
140
1.0
141
4.0
290
     0
  0
SCALE
  5
4B
102
{ACAD_REACTORS
330
47
102
}
330
47
100
AcDbScale
 70
     0
300
1:5
140
1.0
141
5.0
290
     0
  0
SCALE
  5
4C
102
{ACAD_REACTORS
330
47
102
}
330
47
100
AcDbScale
 70
     0
300
1:8
140
1.0
141
8.0
290
     0
  0
SCALE
  5
4D
102
{ACAD_REACTORS
330
47
102
}
330
47
100
AcDbScale
 70
     0
300
1:10
140
1.0
141
10.0
290
     0
  0
SCALE
  5
4E
102
{ACAD_REACTORS
330
47
102
}
330
47
100
AcDbScale
 70
     0
300
1:16
140
1.0
141
16.0
290
     0
  0
SCALE
  5
4F
102
{ACAD_REACTORS
330
47
102
}
330
47
100
AcDbScale
 70
     0
300
1:20
140
1.0
141
20.0
290
     0
  0
SCALE
  5
50
102
{ACAD_REACTORS
330
47
102
}
330
47
100
AcDbScale
 70
     0
300
1:30
140
1.0
141
30.0
290
     0
  0
SCALE
  5
51
102
{ACAD_REACTORS
330
47
102
}
330
47
100
AcDbScale
 70
     0
300
1:40
140
1.0
141
40.0
290
     0
  0
SCALE
  5
52
102
{ACAD_REACTORS
330
47
102
}
330
47
100
AcDbScale
 70
     0
300
1:50
140
1.0
141
50.0
290
     0
  0
SCALE
  5
53
102
{ACAD_REACTORS
330
47
102
}
330
47
100
AcDbScale
 70
     0
300
1:100
140
1.0
141
100.0
290
     0
  0
SCALE
  5
54
102
{ACAD_REACTORS
330
47
102
}
330
47
100
AcDbScale
 70
     0
300
2:1
140
2.0
141
1.0
290
     0
  0
SCALE
  5
55
102
{ACAD_REACTORS
330
47
102
}
330
47
100
AcDbScale
 70
     0
300
4:1
140
4.0
141
1.0
290
     0
  0
SCALE
  5
56
102
{ACAD_REACTORS
330
47
102
}
330
47
100
AcDbScale
 70
     0
300
8:1
140
8.0
141
1.0
290
     0
  0
SCALE
  5
57
102
{ACAD_REACTORS
330
47
102
}
330
47
100
AcDbScale
 70
     0
300
10:1
140
10.0
141
1.0
290
     0
  0
SCALE
  5
58
102
{ACAD_REACTORS
330
47
102
}
330
47
100
AcDbScale
 70
     0
300
100:1
140
100.0
141
1.0
290
     0
  0
SCALE
  5
59
102
{ACAD_REACTORS
330
47
102
}
330
47
100
AcDbScale
 70
     0
300
1/128" = 1'-0"
140
0.0078125
141
12.0
290
     0
  0
SCALE
  5
5A
102
{ACAD_REACTORS
330
47
102
}
330
47
100
AcDbScale
 70
     0
300
1/64" = 1'-0"
140
0.015625
141
12.0
290
     0
  0
SCALE
  5
5B
102
{ACAD_REACTORS
330
47
102
}
330
47
100
AcDbScale
 70
     0
300
1/32" = 1'-0"
140
0.03125
141
12.0
290
     0
  0
SCALE
  5
5C
102
{ACAD_REACTORS
330
47
102
}
330
47
100
AcDbScale
 70
     0
300
1/16" = 1'-0"
140
0.0625
141
12.0
290
     0
  0
SCALE
  5
5D
102
{ACAD_REACTORS
330
47
102
}
330
47
100
AcDbScale
 70
     0
300
3/32" = 1'-0"
140
0.09375
141
12.0
290
     0
  0
SCALE
  5
5E
102
{ACAD_REACTORS
330
47
102
}
330
47
100
AcDbScale
 70
     0
300
1/8" = 1'-0"
140
0.125
141
12.0
290
     0
  0
SCALE
  5
5F
102
{ACAD_REACTORS
330
47
102
}
330
47
100
AcDbScale
 70
     0
300
3/16" = 1'-0"
140
0.1875
141
12.0
290
     0
  0
SCALE
  5
60
102
{ACAD_REACTORS
330
47
102
}
330
47
100
AcDbScale
 70
     0
300
1/4" = 1'-0"
140
0.25
141
12.0
290
     0
  0
SCALE
  5
61
102
{ACAD_REACTORS
330
47
102
}
330
47
100
AcDbScale
 70
     0
300
3/8" = 1'-0"
140
0.375
141
12.0
290
     0
  0
SCALE
  5
62
102
{ACAD_REACTORS
330
47
102
}
330
47
100
AcDbScale
 70
     0
300
1/2" = 1'-0"
140
0.5
141
12.0
290
     0
  0
SCALE
  5
63
102
{ACAD_REACTORS
330
47
102
}
330
47
100
AcDbScale
 70
     0
300
3/4" = 1'-0"
140
0.75
141
12.0
290
     0
  0
SCALE
  5
64
102
{ACAD_REACTORS
330
47
102
}
330
47
100
AcDbScale
 70
     0
300
1" = 1'-0"
140
1.0
141
12.0
290
     0
  0
SCALE
  5
65
102
{ACAD_REACTORS
330
47
102
}
330
47
100
AcDbScale
 70
     0
300
1-1/2" = 1'-0"
140
1.5
141
12.0
290
     0
  0
SCALE
  5
66
102
{ACAD_REACTORS
330
47
102
}
330
47
100
AcDbScale
 70
     0
300
3" = 1'-0"
140
3.0
141
12.0
290
     0
  0
SCALE
  5
67
102
{ACAD_REACTORS
330
47
102
}
330
47
100
AcDbScale
 70
     0
300
6" = 1'-0"
140
6.0
141
12.0
290
     0
  0
SCALE
  5
68
102
{ACAD_REACTORS
330
47
102
}
330
47
100
AcDbScale
 70
     0
300
1'-0" = 1'-0"
140
12.0
141
12.0
290
     0
  0
ENDSEC
  0
EOF
